Akordy - "Czas komety"



E-|-----------------|-----------------|-----------------|-----------------|
H-|---------0-------|---------0-------|---------0-------|---------0-------|
G-|-----2-----2---2-|-----2-----2---2-|-----2-----2---2-|-----2-----2---2-|
D-|---2---2-----2---|---2---2-----2---|---2---2-----2---|---2---2-----2---|
A-|-0---------------|-0---------------|-0---------------|-0---------------|
E-|-----------------|-----------------|-----------------|-----------------|


 zwrotka: 
          A9 A9 A9 C D C d a |x2

 refren:
          A9 riff1 riff2 D
          A9 riff1 riff2 D a

 zwrotka: 
          A9 A9 A9 C D C d a |x2

 refren:
          A9 riff1 riff2 D
          A9 riff1 riff2 D a

 wstawka: "Jutro znów powróce...."

          A9 riff1 riff2 D
          A9 riff1 riff2 C
          A9 riff1 riff2 D
          A9 riff1 riff2 C
          A9 riff1 riff2 D
          A9 riff1 riff2 C

 refren:
          A9 riff1 riff2 D
          A9 riff1 riff2 D a

riff1:

 E-|--------------|         E-|--------------|
 H-|--------------|         H-|--------------|
 G-|--------------|         G-|--------------|
 D-|---2----------|         D-|--------------|
 A-|-3------------|         A-|---2----------|
 E-|--------------|         E-|-3------------|