Akordy - "Owoce wschodu"

Autor opracowania: Mecki

 Wstęp i motyw główny
   d
e|------------------------1p0-----------------------------------------|r
H|-----3---1------------------3-------3---1---------------------------|e
G|---2---2---2--------2h3-------2---2---2---2-----------0h2p0---------|p
D|-0-----------0----0-------------0-----------0---0-2h3-------3-------|e
A|---------------1------------------------------1---------------------|a
E|--------------------------------------------------------------------|t

Refren
       D
e|-----3-2---5--5-5-5--5-5-x-x-|r
H|-----3-3---6--6-6-6--6-6-x-x-|e
G|-2---2-2---7--7-7-7--7-7-x-x-|p
D|-0---------------------------|e
A|-----------------------------|a
E|-----------------------------|t
   A     G     A     G
e|---5-----3-----5-----3-3------|r
H|---5-x---3-x---5-x---3-3-x-x--|e
G|---6-x---4-x---6-x---4-4-x-x--|p
D|-7---x-5---x-7---x-5-----x-x--|e
A|-7-----5-----7-----5----------|a
E|-5-----3-----5-----3----------|t

Koncówka

e|-------8--------10-------6-----6-----|r
H|-----8-------10--------6---6---------|e
G|---7-------7---------7-------7---7---|p
D|-0-----------------------------------|e
A|-------------------------------------|a
E|-------------------------------------|t