Akordy - "Agnieszka"

Grane jako intro i między wersami zwrotek:

   d
-----------1--------------
-------3-2---3-2-3/2------
----2----------------3----
--0-----------------------
--------------------------
--------------------------

Gdy grasz to jako intro, zagraj 3 razy, a za czwartym:

   d
-----------1--------------
-------3-2---3-2-3~-------
----2---------------------
--0-----------------------
--------------------------
--------------------------

oznaczenia:
/ - ślizg
~ - vibrato